ISO-10303-21;
HEADER;
FILE_DESCRIPTION((''),'2;1');
FILE_NAME('AX123_SPACER-BUGHING','2011-11-08T',('Andy'),(''),
'PRO/ENGINEER BY PARAMETRIC TECHNOLOGY CORPORATION, 2009060',
'PRO/ENGINEER BY PARAMETRIC TECHNOLOGY CORPORATION, 2009060','');
FILE_SCHEMA(('CONFIG_CONTROL_DESIGN'));
ENDSEC;
DATA;
#2=CARTESIAN_POINT('',(0.E0,0.E0,0.E0));
#3=DIRECTION('',(0.E0,-1.E0,0.E0));
#4=DIRECTION('',(1.E0,0.E0,0.E0));
#5=AXIS2_PLACEMENT_3D('',#2,#3,#4);
#7=CARTESIAN_POINT('',(0.E0,0.E0,0.E0));
#8=DIRECTION('',(0.E0,-1.E0,0.E0));
#9=DIRECTION('',(-1.E0,0.E0,0.E0));
#10=AXIS2_PLACEMENT_3D('',#7,#8,#9);
#12=CARTESIAN_POINT('',(0.E0,0.E0,0.E0));
#13=DIRECTION('',(0.E0,1.E0,0.E0));
#14=DIRECTION('',(1.E0,0.E0,0.E0));
#15=AXIS2_PLACEMENT_3D('',#12,#13,#14);
#17=CARTESIAN_POINT('',(0.E0,0.E0,0.E0));
#18=DIRECTION('',(0.E0,1.E0,0.E0));
#19=DIRECTION('',(-1.E0,0.E0,0.E0));
#20=AXIS2_PLACEMENT_3D('',#17,#18,#19);
#22=DIRECTION('',(0.E0,1.E0,0.E0));
#23=VECTOR('',#22,1.9E0);
#24=CARTESIAN_POINT('',(4.025E0,0.E0,0.E0));
#25=LINE('',#24,#23);
#26=DIRECTION('',(0.E0,1.E0,0.E0));
#27=VECTOR('',#26,1.9E0);
#28=CARTESIAN_POINT('',(-4.025E0,0.E0,0.E0));
#29=LINE('',#28,#27);
#30=CARTESIAN_POINT('',(0.E0,1.9E0,0.E0));
#31=DIRECTION('',(0.E0,-1.E0,0.E0));
#32=DIRECTION('',(1.E0,0.E0,0.E0));
#33=AXIS2_PLACEMENT_3D('',#30,#31,#32);
#35=CARTESIAN_POINT('',(0.E0,1.9E0,0.E0));
#36=DIRECTION('',(0.E0,-1.E0,0.E0));
#37=DIRECTION('',(-1.E0,0.E0,0.E0));
#38=AXIS2_PLACEMENT_3D('',#35,#36,#37);
#40=CARTESIAN_POINT('',(0.E0,1.9E0,0.E0));
#41=DIRECTION('',(0.E0,1.E0,0.E0));
#42=DIRECTION('',(1.E0,0.E0,0.E0));
#43=AXIS2_PLACEMENT_3D('',#40,#41,#42);
#45=CARTESIAN_POINT('',(0.E0,1.9E0,0.E0));
#46=DIRECTION('',(0.E0,1.E0,0.E0));
#47=DIRECTION('',(-1.E0,0.E0,0.E0));
#48=AXIS2_PLACEMENT_3D('',#45,#46,#47);
#50=DIRECTION('',(0.E0,1.E0,0.E0));
#51=VECTOR('',#50,1.9E0);
#52=CARTESIAN_POINT('',(6.E0,0.E0,0.E0));
#53=LINE('',#52,#51);
#54=DIRECTION('',(0.E0,1.E0,0.E0));
#55=VECTOR('',#54,1.9E0);
#56=CARTESIAN_POINT('',(-6.E0,0.E0,0.E0));
#57=LINE('',#56,#55);
#58=CARTESIAN_POINT('',(4.025E0,0.E0,0.E0));
#59=CARTESIAN_POINT('',(-4.025E0,0.E0,0.E0));
#60=VERTEX_POINT('',#58);
#61=VERTEX_POINT('',#59);
#62=CARTESIAN_POINT('',(6.E0,0.E0,0.E0));
#63=CARTESIAN_POINT('',(-6.E0,0.E0,0.E0));
#64=VERTEX_POINT('',#62);
#65=VERTEX_POINT('',#63);
#66=CARTESIAN_POINT('',(4.025E0,1.9E0,0.E0));
#67=CARTESIAN_POINT('',(-4.025E0,1.9E0,0.E0));
#68=VERTEX_POINT('',#66);
#69=VERTEX_POINT('',#67);
#70=CARTESIAN_POINT('',(6.E0,1.9E0,0.E0));
#71=CARTESIAN_POINT('',(-6.E0,1.9E0,0.E0));
#72=VERTEX_POINT('',#70);
#73=VERTEX_POINT('',#71);
#74=CARTESIAN_POINT('',(0.E0,0.E0,0.E0));
#75=DIRECTION('',(0.E0,1.E0,0.E0));
#76=DIRECTION('',(1.E0,0.E0,0.E0));
#77=AXIS2_PLACEMENT_3D('',#74,#75,#76);
#78=PLANE('',#77);
#80=ORIENTED_EDGE('',*,*,#79,.T.);
#82=ORIENTED_EDGE('',*,*,#81,.T.);
#83=EDGE_LOOP('',(#80,#82));
#84=FACE_OUTER_BOUND('',#83,.F.);
#86=ORIENTED_EDGE('',*,*,#85,.T.);
#88=ORIENTED_EDGE('',*,*,#87,.T.);
#89=EDGE_LOOP('',(#86,#88));
#90=FACE_BOUND('',#89,.F.);
#91=ADVANCED_FACE('',(#84,#90),#78,.F.);
#92=CARTESIAN_POINT('',(0.E0,0.E0,0.E0));
#93=DIRECTION('',(0.E0,1.E0,0.E0));
#94=DIRECTION('',(1.E0,0.E0,0.E0));
#95=AXIS2_PLACEMENT_3D('',#92,#93,#94);
#96=CYLINDRICAL_SURFACE('',#95,4.025E0);
#97=ORIENTED_EDGE('',*,*,#85,.F.);
#99=ORIENTED_EDGE('',*,*,#98,.T.);
#101=ORIENTED_EDGE('',*,*,#100,.T.);
#103=ORIENTED_EDGE('',*,*,#102,.F.);
#104=EDGE_LOOP('',(#97,#99,#101,#103));
#105=FACE_OUTER_BOUND('',#104,.F.);
#106=ADVANCED_FACE('',(#105),#96,.F.);
#107=CARTESIAN_POINT('',(0.E0,0.E0,0.E0));
#108=DIRECTION('',(0.E0,1.E0,0.E0));
#109=DIRECTION('',(1.E0,0.E0,0.E0));
#110=AXIS2_PLACEMENT_3D('',#107,#108,#109);
#111=CYLINDRICAL_SURFACE('',#110,4.025E0);
#112=ORIENTED_EDGE('',*,*,#87,.F.);
#113=ORIENTED_EDGE('',*,*,#102,.T.);
#115=ORIENTED_EDGE('',*,*,#114,.T.);
#116=ORIENTED_EDGE('',*,*,#98,.F.);
#117=EDGE_LOOP('',(#112,#113,#115,#116));
#118=FACE_OUTER_BOUND('',#117,.F.);
#119=ADVANCED_FACE('',(#118),#111,.F.);
#120=CARTESIAN_POINT('',(0.E0,1.9E0,0.E0));
#121=DIRECTION('',(0.E0,1.E0,0.E0));
#122=DIRECTION('',(1.E0,0.E0,0.E0));
#123=AXIS2_PLACEMENT_3D('',#120,#121,#122);
#124=PLANE('',#123);
#126=ORIENTED_EDGE('',*,*,#125,.F.);
#128=ORIENTED_EDGE('',*,*,#127,.F.);
#129=EDGE_LOOP('',(#126,#128));
#130=FACE_OUTER_BOUND('',#129,.F.);
#131=ORIENTED_EDGE('',*,*,#100,.F.);
#132=ORIENTED_EDGE('',*,*,#114,.F.);
#133=EDGE_LOOP('',(#131,#132));
#134=FACE_BOUND('',#133,.F.);
#135=ADVANCED_FACE('',(#130,#134),#124,.T.);
#136=CARTESIAN_POINT('',(0.E0,0.E0,0.E0));
#137=DIRECTION('',(0.E0,1.E0,0.E0));
#138=DIRECTION('',(1.E0,0.E0,0.E0));
#139=AXIS2_PLACEMENT_3D('',#136,#137,#138);
#140=CYLINDRICAL_SURFACE('',#139,6.E0);
#141=ORIENTED_EDGE('',*,*,#79,.F.);
#143=ORIENTED_EDGE('',*,*,#142,.T.);
#144=ORIENTED_EDGE('',*,*,#125,.T.);
#146=ORIENTED_EDGE('',*,*,#145,.F.);
#147=EDGE_LOOP('',(#141,#143,#144,#146));
#148=FACE_OUTER_BOUND('',#147,.F.);
#149=ADVANCED_FACE('',(#148),#140,.T.);
#150=CARTESIAN_POINT('',(0.E0,0.E0,0.E0));
#151=DIRECTION('',(0.E0,1.E0,0.E0));
#152=DIRECTION('',(1.E0,0.E0,0.E0));
#153=AXIS2_PLACEMENT_3D('',#150,#151,#152);
#154=CYLINDRICAL_SURFACE('',#153,6.E0);
#155=ORIENTED_EDGE('',*,*,#81,.F.);
#156=ORIENTED_EDGE('',*,*,#145,.T.);
#157=ORIENTED_EDGE('',*,*,#127,.T.);
#158=ORIENTED_EDGE('',*,*,#142,.F.);
#159=EDGE_LOOP('',(#155,#156,#157,#158));
#160=FACE_OUTER_BOUND('',#159,.F.);
#161=ADVANCED_FACE('',(#160),#154,.T.);
#162=CLOSED_SHELL('',(#91,#106,#119,#135,#149,#161));
#163=MANIFOLD_SOLID_BREP('',#162);
#164=(LENGTH_UNIT()NAMED_UNIT(*)SI_UNIT(.MILLI.,.METRE.));
#165=DIMENSIONAL_EXPONENTS(0.E0,0.E0,0.E0,0.E0,0.E0,0.E0,0.E0);
#166=(NAMED_UNIT(*)PLANE_ANGLE_UNIT()SI_UNIT($,.RADIAN.));
#167=PLANE_ANGLE_MEASURE_WITH_UNIT(PLANE_ANGLE_MEASURE(1.745329251994E-2),#166);
#168=(CONVERSION_BASED_UNIT('DEGREE',#167)NAMED_UNIT(#165)PLANE_ANGLE_UNIT());
#169=(NAMED_UNIT(*)SI_UNIT($,.STERADIAN.)SOLID_ANGLE_UNIT());
#170=UNCERTAINTY_MEASURE_WITH_UNIT(LENGTH_MEASURE(1.707590910220E-3),#164,
'closure',
'Maximum model space distance between geometric entities at asserted connectivities');
#171=(GEOMETRIC_REPRESENTATION_CONTEXT(3)GLOBAL_UNCERTAINTY_ASSIGNED_CONTEXT((
#170))GLOBAL_UNIT_ASSIGNED_CONTEXT((#164,#168,#169))REPRESENTATION_CONTEXT
('ID1','3'));
#173=APPLICATION_CONTEXT(
'CONFIGURATION CONTROLLED 3D DESIGNS OF MECHANICAL PARTS AND ASSEMBLIES');
#174=APPLICATION_PROTOCOL_DEFINITION('international standard',
'config_control_design',1994,#173);
#175=DESIGN_CONTEXT('',#173,'design');
#176=MECHANICAL_CONTEXT('',#173,'mechanical');
#177=PRODUCT('AX123_SPACER-BUGHING','AX123_SPACER-BUGHING','NOT SPECIFIED',
(#176));
#178=PRODUCT_DEFINITION_FORMATION_WITH_SPECIFIED_SOURCE('1','LAST_VERSION',#177,
.MADE.);
#182=PRODUCT_CATEGORY('part','');
#183=PRODUCT_RELATED_PRODUCT_CATEGORY('detail','',(#177));
#184=PRODUCT_CATEGORY_RELATIONSHIP('','',#182,#183);
#185=SECURITY_CLASSIFICATION_LEVEL('unclassified');
#186=SECURITY_CLASSIFICATION('','',#185);
#187=CC_DESIGN_SECURITY_CLASSIFICATION(#186,(#178));
#188=APPROVAL_STATUS('approved');
#189=APPROVAL(#188,'');
#190=CC_DESIGN_APPROVAL(#189,(#186,#178,#179));
#191=CALENDAR_DATE(111,8,11);
#192=COORDINATED_UNIVERSAL_TIME_OFFSET(9,0,.AHEAD.);
#193=LOCAL_TIME(9,16,3.5E1,#192);
#194=DATE_AND_TIME(#191,#193);
#195=APPROVAL_DATE_TIME(#194,#189);
#196=DATE_TIME_ROLE('creation_date');
#197=CC_DESIGN_DATE_AND_TIME_ASSIGNMENT(#194,#196,(#179));
#198=DATE_TIME_ROLE('classification_date');
#199=CC_DESIGN_DATE_AND_TIME_ASSIGNMENT(#194,#198,(#186));
#200=PERSON('UNSPECIFIED','UNSPECIFIED',$,$,$,$);
#201=ORGANIZATION('UNSPECIFIED','UNSPECIFIED','UNSPECIFIED');
#202=PERSON_AND_ORGANIZATION(#200,#201);
#203=APPROVAL_ROLE('approver');
#204=APPROVAL_PERSON_ORGANIZATION(#202,#189,#203);
#205=PERSON_AND_ORGANIZATION_ROLE('creator');
#206=CC_DESIGN_PERSON_AND_ORGANIZATION_ASSIGNMENT(#202,#205,(#178,#179));
#207=PERSON_AND_ORGANIZATION_ROLE('design_supplier');
#208=CC_DESIGN_PERSON_AND_ORGANIZATION_ASSIGNMENT(#202,#207,(#178));
#209=PERSON_AND_ORGANIZATION_ROLE('classification_officer');
#210=CC_DESIGN_PERSON_AND_ORGANIZATION_ASSIGNMENT(#202,#209,(#186));
#211=PERSON_AND_ORGANIZATION_ROLE('design_owner');
#212=CC_DESIGN_PERSON_AND_ORGANIZATION_ASSIGNMENT(#202,#211,(#177));
#6=CIRCLE('',#5,4.025E0);
#11=CIRCLE('',#10,4.025E0);
#16=CIRCLE('',#15,6.E0);
#21=CIRCLE('',#20,6.E0);
#34=CIRCLE('',#33,4.025E0);
#39=CIRCLE('',#38,4.025E0);
#44=CIRCLE('',#43,6.E0);
#49=CIRCLE('',#48,6.E0);
#79=EDGE_CURVE('',#64,#65,#16,.T.);
#81=EDGE_CURVE('',#65,#64,#21,.T.);
#85=EDGE_CURVE('',#60,#61,#6,.T.);
#87=EDGE_CURVE('',#61,#60,#11,.T.);
#98=EDGE_CURVE('',#60,#68,#25,.T.);
#100=EDGE_CURVE('',#68,#69,#34,.T.);
#102=EDGE_CURVE('',#61,#69,#29,.T.);
#114=EDGE_CURVE('',#69,#68,#39,.T.);
#125=EDGE_CURVE('',#72,#73,#44,.T.);
#127=EDGE_CURVE('',#73,#72,#49,.T.);
#142=EDGE_CURVE('',#64,#72,#53,.T.);
#145=EDGE_CURVE('',#65,#73,#57,.T.);
#172=ADVANCED_BREP_SHAPE_REPRESENTATION('',(#163),#171);
#179=PRODUCT_DEFINITION('design','',#178,#175);
#180=PRODUCT_DEFINITION_SHAPE('','SHAPE FOR AX123_SPACER-BUGHING.',#179);
#181=SHAPE_DEFINITION_REPRESENTATION(#180,#172);
ENDSEC;
END-ISO-10303-21;
