ISO-10303-21;
HEADER;
FILE_DESCRIPTION (( 'STEP AP214' ),
    '1' );
FILE_NAME ('SP2.STEP',
    '2012-11-12T11:14:21',
    ( 'D.M.S.' ),
    ( '' ),
    'SwSTEP 2.0',
    'SolidWorks 2009',
    '' );
FILE_SCHEMA (( 'AUTOMOTIVE_DESIGN' ));
ENDSEC;

DATA;
#1 = CLOSED_SHELL ( 'NONE', ( #27, #34, #14, #10, #56, #50 ) ) ;
#2 = ORIENTED_EDGE ( 'NONE', *, *, #36, .T. ) ;
#3 = ORIENTED_EDGE ( 'NONE', *, *, #19, .F. ) ;
#4 = ORIENTED_EDGE ( 'NONE', *, *, #60, .F. ) ;
#5 = ORIENTED_EDGE ( 'NONE', *, *, #35, .T. ) ;
#6 = EDGE_LOOP ( 'NONE', ( #8, #7 ) ) ;
#7 = ORIENTED_EDGE ( 'NONE', *, *, #9, .F. ) ;
#8 = ORIENTED_EDGE ( 'NONE', *, *, #26, .F. ) ;
#9 = EDGE_CURVE ( 'NONE', #21, #20, #93, .T. ) ;
#10 = ADVANCED_FACE ( 'NONE', ( #62, #94 ), #74, .F. ) ;
#11 = EDGE_LOOP ( 'NONE', ( #4, #46 ) ) ;
#12 = ORIENTED_EDGE ( 'NONE', *, *, #13, .T. ) ;
#13 = EDGE_CURVE ( 'NONE', #40, #33, #71, .T. ) ;
#14 = ADVANCED_FACE ( 'NONE', ( #72, #67 ), #66, .T. ) ;
#15 = EDGE_CURVE ( 'NONE', #16, #23, #84, .T. ) ;
#16 = VERTEX_POINT ( 'NONE', #79 ) ;
#17 = ORIENTED_EDGE ( 'NONE', *, *, #15, .F. ) ;
#18 = ORIENTED_EDGE ( 'NONE', *, *, #19, .T. ) ;
#19 = EDGE_CURVE ( 'NONE', #21, #23, #78, .T. ) ;
#20 = VERTEX_POINT ( 'NONE', #95 ) ;
#21 = VERTEX_POINT ( 'NONE', #102 ) ;
#22 = ORIENTED_EDGE ( 'NONE', *, *, #36, .F. ) ;
#23 = VERTEX_POINT ( 'NONE', #96 ) ;
#24 = EDGE_LOOP ( 'NONE', ( #25, #18, #17, #22 ) ) ;
#25 = ORIENTED_EDGE ( 'NONE', *, *, #26, .T. ) ;
#26 = EDGE_CURVE ( 'NONE', #20, #21, #116, .T. ) ;
#27 = ADVANCED_FACE ( 'NONE', ( #145 ), #148, .F. ) ;
#28 = VERTEX_POINT ( 'NONE', #106 ) ;
#29 = ORIENTED_EDGE ( 'NONE', *, *, #31, .F. ) ;
#30 = EDGE_LOOP ( 'NONE', ( #12, #5 ) ) ;
#31 = EDGE_CURVE ( 'NONE', #40, #28, #104, .T. ) ;
#32 = MANIFOLD_SOLID_BREP ( 'NONE', #1 ) ;
#33 = VERTEX_POINT ( 'NONE', #142 ) ;
#34 = ADVANCED_FACE ( 'NONE', ( #141 ), #139, .T. ) ;
#35 = EDGE_CURVE ( 'NONE', #33, #40, #196, .T. ) ;
#36 = EDGE_CURVE ( 'NONE', #20, #16, #191, .T. ) ;
#37 = EDGE_CURVE ( 'NONE', #33, #38, #178, .T. ) ;
#38 = VERTEX_POINT ( 'NONE', #174 ) ;
#39 = ORIENTED_EDGE ( 'NONE', *, *, #37, .T. ) ;
#40 = VERTEX_POINT ( 'NONE', #173 ) ;
#41 = ORIENTED_EDGE ( 'NONE', *, *, #42, .T. ) ;
#42 = EDGE_CURVE ( 'NONE', #38, #28, #172, .T. ) ;
#43 = ORIENTED_EDGE ( 'NONE', *, *, #35, .F. ) ;
#44 = EDGE_LOOP ( 'NONE', ( #43, #39, #41, #29 ) ) ;
#45 = ORIENTED_EDGE ( 'NONE', *, *, #60, .T. ) ;
#46 = ORIENTED_EDGE ( 'NONE', *, *, #42, .F. ) ;
#47 = EDGE_LOOP ( 'NONE', ( #52, #54, #53, #45 ) ) ;
#48 = ORIENTED_EDGE ( 'NONE', *, *, #55, .F. ) ;
#49 = ORIENTED_EDGE ( 'NONE', *, *, #9, .T. ) ;
#50 = ADVANCED_FACE ( 'NONE', ( #167 ), #166, .F. ) ;
#51 = EDGE_LOOP ( 'NONE', ( #3, #49, #2, #48 ) ) ;
#52 = ORIENTED_EDGE ( 'NONE', *, *, #37, .F. ) ;
#53 = ORIENTED_EDGE ( 'NONE', *, *, #31, .T. ) ;
#54 = ORIENTED_EDGE ( 'NONE', *, *, #13, .F. ) ;
#55 = EDGE_CURVE ( 'NONE', #23, #16, #164, .T. ) ;
#56 = ADVANCED_FACE ( 'NONE', ( #156 ), #155, .T. ) ;
#57 = ORIENTED_EDGE ( 'NONE', *, *, #15, .T. ) ;
#58 = EDGE_LOOP ( 'NONE', ( #57, #59 ) ) ;
#59 = ORIENTED_EDGE ( 'NONE', *, *, #55, .T. ) ;
#60 = EDGE_CURVE ( 'NONE', #28, #38, #149, .T. ) ;
#61 = DIRECTION ( 'NONE',  ( 0.0000000000000000000, 0.0000000000000000000, 1.000000000000000000 ) ) ;
#62 = FACE_OUTER_BOUND ( 'NONE', #11, .T. ) ;
#63 = DIRECTION ( 'NONE',  ( 1.000000000000000000, 0.0000000000000000000, 0.0000000000000000000 ) ) ;
#64 = AXIS2_PLACEMENT_3D ( 'NONE', #92, #61, #63 ) ;
#65 = AXIS2_PLACEMENT_3D ( 'NONE', #87, #86, #85 ) ;
#66 = PLANE ( 'NONE',  #65 ) ;
#67 = FACE_BOUND ( 'NONE', #6, .T. ) ;
#68 = DIRECTION ( 'NONE',  ( 1.000000000000000000, 0.0000000000000000000, 0.0000000000000000000 ) ) ;
#69 = DIRECTION ( 'NONE',  ( 0.0000000000000000000, 0.0000000000000000000, 1.000000000000000000 ) ) ;
#70 = AXIS2_PLACEMENT_3D ( 'NONE', #88, #69, #68 ) ;
#71 = CIRCLE ( 'NONE', #70, 2.000000000000000000 ) ;
#72 = FACE_OUTER_BOUND ( 'NONE', #30, .T. ) ;
#73 = AXIS2_PLACEMENT_3D ( 'NONE', #91, #90, #89 ) ;
#74 = PLANE ( 'NONE',  #73 ) ;
#75 = DIRECTION ( 'NONE',  ( -0.0000000000000000000, -0.0000000000000000000, -1.000000000000000000 ) ) ;
#76 = VECTOR ( 'NONE', #75, 1000.000000000000000 ) ;
#77 = CARTESIAN_POINT ( 'NONE',  ( 1.100000000000000300, 1.347066989204615300E-016, 6.099999999999999600 ) ) ;
#78 = LINE ( 'NONE', #77, #76 ) ;
#79 = CARTESIAN_POINT ( 'NONE',  ( -1.100000000000000300, 0.0000000000000000000, 0.0000000000000000000 ) ) ;
#80 = DIRECTION ( 'NONE',  ( 1.000000000000000000, 0.0000000000000000000, 0.0000000000000000000 ) ) ;
#81 = DIRECTION ( 'NONE',  ( 0.0000000000000000000, 0.0000000000000000000, 1.000000000000000000 ) ) ;
#82 = CARTESIAN_POINT ( 'NONE',  ( 0.0000000000000000000, 0.0000000000000000000, 0.0000000000000000000 ) ) ;
#83 = AXIS2_PLACEMENT_3D ( 'NONE', #82, #81, #80 ) ;
#84 = CIRCLE ( 'NONE', #83, 1.100000000000000300 ) ;
#85 = DIRECTION ( 'NONE',  ( 1.000000000000000000, 0.0000000000000000000, -0.0000000000000000000 ) ) ;
#86 = DIRECTION ( 'NONE',  ( 0.0000000000000000000, 0.0000000000000000000, 1.000000000000000000 ) ) ;
#87 = CARTESIAN_POINT ( 'NONE',  ( 0.0000000000000000000, 0.0000000000000000000, 6.099999999999999600 ) ) ;
#88 = CARTESIAN_POINT ( 'NONE',  ( 0.0000000000000000000, 0.0000000000000000000, 6.099999999999999600 ) ) ;
#89 = DIRECTION ( 'NONE',  ( 1.000000000000000000, 0.0000000000000000000, -0.0000000000000000000 ) ) ;
#90 = DIRECTION ( 'NONE',  ( 0.0000000000000000000, 0.0000000000000000000, 1.000000000000000000 ) ) ;
#91 = CARTESIAN_POINT ( 'NONE',  ( 0.0000000000000000000, 0.0000000000000000000, 0.0000000000000000000 ) ) ;
#92 = CARTESIAN_POINT ( 'NONE',  ( 0.0000000000000000000, 0.0000000000000000000, 6.099999999999999600 ) ) ;
#93 = CIRCLE ( 'NONE', #64, 1.100000000000000300 ) ;
#94 = FACE_BOUND ( 'NONE', #58, .T. ) ;
#95 = CARTESIAN_POINT ( 'NONE',  ( -1.100000000000000300, 0.0000000000000000000, 6.099999999999999600 ) ) ;
#96 = CARTESIAN_POINT ( 'NONE',  ( 1.100000000000000300, 1.347066989204615300E-016, 0.0000000000000000000 ) ) ;
#97 = DIRECTION ( 'NONE',  ( -0.0000000000000000000, -0.0000000000000000000, -1.000000000000000000 ) ) ;
#98 = DIRECTION ( 'NONE',  ( 1.000000000000000000, 0.0000000000000000000, 0.0000000000000000000 ) ) ;
#99 = DIRECTION ( 'NONE',  ( 0.0000000000000000000, 0.0000000000000000000, 1.000000000000000000 ) ) ;
#100 = CARTESIAN_POINT ( 'NONE',  ( 0.0000000000000000000, 0.0000000000000000000, 6.099999999999999600 ) ) ;
#101 = AXIS2_PLACEMENT_3D ( 'NONE', #100, #99, #98 ) ;
#102 = CARTESIAN_POINT ( 'NONE',  ( 1.100000000000000300, 1.347066989204615300E-016, 6.099999999999999600 ) ) ;
#103 = CARTESIAN_POINT ( 'NONE',  ( -2.000000000000000000, 0.0000000000000000000, 6.099999999999999600 ) ) ;
#104 = LINE ( 'NONE', #103, #144 ) ;
#105 = DIRECTION ( 'NONE',  ( -1.000000000000000000, 0.0000000000000000000, 0.0000000000000000000 ) ) ;
#106 = CARTESIAN_POINT ( 'NONE',  ( -2.000000000000000000, 0.0000000000000000000, 0.0000000000000000000 ) ) ;
#107 = APPLICATION_CONTEXT ( 'automotive_design' ) ;
#108 = SHAPE_DEFINITION_REPRESENTATION ( #115, #129 ) ;
#109 = DIRECTION ( 'NONE',  ( 1.000000000000000000, 0.0000000000000000000, 0.0000000000000000000 ) ) ;
#110 = AXIS2_PLACEMENT_3D ( 'NONE', #135, #111, #109 ) ;
#111 = DIRECTION ( 'NONE',  ( 0.0000000000000000000, 0.0000000000000000000, 1.000000000000000000 ) ) ;
#112 =( GEOMETRIC_REPRESENTATION_CONTEXT ( 3 ) GLOBAL_UNCERTAINTY_ASSIGNED_CONTEXT ( ( #113 ) ) GLOBAL_UNIT_ASSIGNED_CONTEXT ( ( #118, #117, #114 ) ) REPRESENTATION_CONTEXT ( 'NONE', 'WORKASPACE' ) );
#113 = UNCERTAINTY_MEASURE_WITH_UNIT (LENGTH_MEASURE( 1.000000000000000100E-005 ), #118, 'distance_accuracy_value', 'NONE');
#114 =( NAMED_UNIT ( * ) SI_UNIT ( $, .STERADIAN. ) SOLID_ANGLE_UNIT ( ) );
#115 = PRODUCT_DEFINITION_SHAPE ( 'NONE', 'NONE',  #181 ) ;
#116 = CIRCLE ( 'NONE', #101, 1.100000000000000300 ) ;
#117 =( NAMED_UNIT ( * ) PLANE_ANGLE_UNIT ( ) SI_UNIT ( $, .RADIAN. ) );
#118 =( LENGTH_UNIT ( ) NAMED_UNIT ( * ) SI_UNIT ( .MILLI., .METRE. ) );
#119 = MECHANICAL_DESIGN_GEOMETRIC_PRESENTATION_REPRESENTATION (  '', ( #121 ), #112 ) ;
#120 = PRESENTATION_LAYER_ASSIGNMENT (  '', '', ( #121 ) ) ;
#121 = STYLED_ITEM ( 'NONE', ( #122 ), #129 ) ;
#122 = PRESENTATION_STYLE_ASSIGNMENT (( #123 ) ) ;
#123 = SURFACE_STYLE_USAGE ( .BOTH. , #124 ) ;
#124 = SURFACE_SIDE_STYLE ('',( #125 ) ) ;
#125 = SURFACE_STYLE_FILL_AREA ( #126 ) ;
#126 = FILL_AREA_STYLE ('',( #127 ) ) ;
#127 = FILL_AREA_STYLE_COLOUR ( '', #128 ) ;
#128 = COLOUR_RGB ( '',0.7960784313725489700, 0.8235294117647058400, 0.9372549019607843100 ) ;
#129 = ADVANCED_BREP_SHAPE_REPRESENTATION ( 'SP2', ( #32, #110 ), #130 ) ;
#130 =( GEOMETRIC_REPRESENTATION_CONTEXT ( 3 ) GLOBAL_UNCERTAINTY_ASSIGNED_CONTEXT ( ( #131 ) ) GLOBAL_UNIT_ASSIGNED_CONTEXT ( ( #134, #133, #132 ) ) REPRESENTATION_CONTEXT ( 'NONE', 'WORKASPACE' ) );
#131 = UNCERTAINTY_MEASURE_WITH_UNIT (LENGTH_MEASURE( 1.000000000000000100E-005 ), #134, 'distance_accuracy_value', 'NONE');
#132 =( NAMED_UNIT ( * ) SI_UNIT ( $, .STERADIAN. ) SOLID_ANGLE_UNIT ( ) );
#133 =( NAMED_UNIT ( * ) PLANE_ANGLE_UNIT ( ) SI_UNIT ( $, .RADIAN. ) );
#134 =( LENGTH_UNIT ( ) NAMED_UNIT ( * ) SI_UNIT ( .MILLI., .METRE. ) );
#135 = CARTESIAN_POINT ( 'NONE',  ( 0.0000000000000000000, 0.0000000000000000000, 0.0000000000000000000 ) ) ;
#136 = DIRECTION ( 'NONE',  ( 1.000000000000000000, 0.0000000000000000000, 0.0000000000000000000 ) ) ;
#137 = DIRECTION ( 'NONE',  ( 0.0000000000000000000, 0.0000000000000000000, 1.000000000000000000 ) ) ;
#138 = CARTESIAN_POINT ( 'NONE',  ( 0.0000000000000000000, 0.0000000000000000000, 0.0000000000000000000 ) ) ;
#139 = CYLINDRICAL_SURFACE ( 'NONE', #140, 2.000000000000000000 ) ;
#140 = AXIS2_PLACEMENT_3D ( 'NONE', #199, #198, #197 ) ;
#141 = FACE_OUTER_BOUND ( 'NONE', #44, .T. ) ;
#142 = CARTESIAN_POINT ( 'NONE',  ( 2.000000000000000000, 2.449212707644754500E-016, 6.099999999999999600 ) ) ;
#143 = DIRECTION ( 'NONE',  ( -0.0000000000000000000, -0.0000000000000000000, -1.000000000000000000 ) ) ;
#144 = VECTOR ( 'NONE', #143, 1000.000000000000000 ) ;
#145 = FACE_OUTER_BOUND ( 'NONE', #24, .T. ) ;
#146 = AXIS2_PLACEMENT_3D ( 'NONE', #147, #97, #105 ) ;
#147 = CARTESIAN_POINT ( 'NONE',  ( 0.0000000000000000000, 0.0000000000000000000, 6.099999999999999600 ) ) ;
#148 = CYLINDRICAL_SURFACE ( 'NONE', #146, 1.100000000000000300 ) ;
#149 = CIRCLE ( 'NONE', #153, 2.000000000000000000 ) ;
#150 = DIRECTION ( 'NONE',  ( -1.000000000000000000, 0.0000000000000000000, 0.0000000000000000000 ) ) ;
#151 = DIRECTION ( 'NONE',  ( -0.0000000000000000000, -0.0000000000000000000, -1.000000000000000000 ) ) ;
#152 = AXIS2_PLACEMENT_3D ( 'NONE', #154, #151, #150 ) ;
#153 = AXIS2_PLACEMENT_3D ( 'NONE', #138, #137, #136 ) ;
#154 = CARTESIAN_POINT ( 'NONE',  ( 0.0000000000000000000, 0.0000000000000000000, 6.099999999999999600 ) ) ;
#155 = CYLINDRICAL_SURFACE ( 'NONE', #152, 2.000000000000000000 ) ;
#156 = FACE_OUTER_BOUND ( 'NONE', #47, .T. ) ;
#157 = DIRECTION ( 'NONE',  ( 1.000000000000000000, 0.0000000000000000000, 0.0000000000000000000 ) ) ;
#158 = DIRECTION ( 'NONE',  ( 0.0000000000000000000, 0.0000000000000000000, 1.000000000000000000 ) ) ;
#159 = CARTESIAN_POINT ( 'NONE',  ( 0.0000000000000000000, 0.0000000000000000000, 0.0000000000000000000 ) ) ;
#160 = AXIS2_PLACEMENT_3D ( 'NONE', #159, #158, #157 ) ;
#161 = DIRECTION ( 'NONE',  ( -1.000000000000000000, 0.0000000000000000000, 0.0000000000000000000 ) ) ;
#162 = DIRECTION ( 'NONE',  ( -0.0000000000000000000, -0.0000000000000000000, -1.000000000000000000 ) ) ;
#163 = AXIS2_PLACEMENT_3D ( 'NONE', #165, #162, #161 ) ;
#164 = CIRCLE ( 'NONE', #160, 1.100000000000000300 ) ;
#165 = CARTESIAN_POINT ( 'NONE',  ( 0.0000000000000000000, 0.0000000000000000000, 6.099999999999999600 ) ) ;
#166 = CYLINDRICAL_SURFACE ( 'NONE', #163, 1.100000000000000300 ) ;
#167 = FACE_OUTER_BOUND ( 'NONE', #51, .T. ) ;
#168 = DIRECTION ( 'NONE',  ( 1.000000000000000000, 0.0000000000000000000, 0.0000000000000000000 ) ) ;
#169 = DIRECTION ( 'NONE',  ( 0.0000000000000000000, 0.0000000000000000000, 1.000000000000000000 ) ) ;
#170 = CARTESIAN_POINT ( 'NONE',  ( 0.0000000000000000000, 0.0000000000000000000, 0.0000000000000000000 ) ) ;
#171 = AXIS2_PLACEMENT_3D ( 'NONE', #170, #169, #168 ) ;
#172 = CIRCLE ( 'NONE', #171, 2.000000000000000000 ) ;
#173 = CARTESIAN_POINT ( 'NONE',  ( -2.000000000000000000, 0.0000000000000000000, 6.099999999999999600 ) ) ;
#174 = CARTESIAN_POINT ( 'NONE',  ( 2.000000000000000000, 2.449212707644754500E-016, 0.0000000000000000000 ) ) ;
#175 = DIRECTION ( 'NONE',  ( -0.0000000000000000000, -0.0000000000000000000, -1.000000000000000000 ) ) ;
#176 = VECTOR ( 'NONE', #175, 1000.000000000000000 ) ;
#177 = CARTESIAN_POINT ( 'NONE',  ( 2.000000000000000000, 2.449212707644754500E-016, 6.099999999999999600 ) ) ;
#178 = LINE ( 'NONE', #177, #176 ) ;
#179 = PRODUCT_RELATED_PRODUCT_CATEGORY ( 'part', '', ( #185 ) ) ;
#180 = PRODUCT_DEFINITION_FORMATION_WITH_SPECIFIED_SOURCE ( 'ANY', '', #185, .NOT_KNOWN. ) ;
#181 = PRODUCT_DEFINITION ( 'UNKNOWN', '', #180, #182 ) ;
#182 = PRODUCT_DEFINITION_CONTEXT ( 'detailed design', #184, 'design' ) ;
#183 = APPLICATION_PROTOCOL_DEFINITION ( 'draft international standard', 'automotive_design', 1998, #184 ) ;
#184 = APPLICATION_CONTEXT ( 'automotive_design' ) ;
#185 = PRODUCT ( 'SP2', 'SP2', '', ( #186 ) ) ;
#186 = PRODUCT_CONTEXT ( 'NONE', #107, 'mechanical' ) ;
#187 = APPLICATION_PROTOCOL_DEFINITION ( 'draft international standard', 'automotive_design', 1998, #107 ) ;
#188 = DIRECTION ( 'NONE',  ( -0.0000000000000000000, -0.0000000000000000000, -1.000000000000000000 ) ) ;
#189 = VECTOR ( 'NONE', #188, 1000.000000000000000 ) ;
#190 = CARTESIAN_POINT ( 'NONE',  ( -1.100000000000000300, 0.0000000000000000000, 6.099999999999999600 ) ) ;
#191 = LINE ( 'NONE', #190, #189 ) ;
#192 = DIRECTION ( 'NONE',  ( 1.000000000000000000, 0.0000000000000000000, 0.0000000000000000000 ) ) ;
#193 = DIRECTION ( 'NONE',  ( 0.0000000000000000000, 0.0000000000000000000, 1.000000000000000000 ) ) ;
#194 = CARTESIAN_POINT ( 'NONE',  ( 0.0000000000000000000, 0.0000000000000000000, 6.099999999999999600 ) ) ;
#195 = AXIS2_PLACEMENT_3D ( 'NONE', #194, #193, #192 ) ;
#196 = CIRCLE ( 'NONE', #195, 2.000000000000000000 ) ;
#197 = DIRECTION ( 'NONE',  ( -1.000000000000000000, 0.0000000000000000000, 0.0000000000000000000 ) ) ;
#198 = DIRECTION ( 'NONE',  ( -0.0000000000000000000, -0.0000000000000000000, -1.000000000000000000 ) ) ;
#199 = CARTESIAN_POINT ( 'NONE',  ( 0.0000000000000000000, 0.0000000000000000000, 6.099999999999999600 ) ) ;
ENDSEC;
END-ISO-10303-21;
