ISO-10303-21;
HEADER;
FILE_DESCRIPTION (( 'STEP AP214' ),
    '1' );
FILE_NAME ('SP1.STEP',
    '2012-11-12T11:13:27',
    ( 'D.M.S.' ),
    ( '' ),
    'SwSTEP 2.0',
    'SolidWorks 2009',
    '' );
FILE_SCHEMA (( 'AUTOMOTIVE_DESIGN' ));
ENDSEC;

DATA;
#1 = DIRECTION ( 'NONE',  ( -1.000000000000000000, 0.0000000000000000000, 0.0000000000000000000 ) ) ;
#2 = DIRECTION ( 'NONE',  ( -0.0000000000000000000, -0.0000000000000000000, -1.000000000000000000 ) ) ;
#3 = AXIS2_PLACEMENT_3D ( 'NONE', #4, #2, #1 ) ;
#4 = CARTESIAN_POINT ( 'NONE',  ( 0.0000000000000000000, 0.0000000000000000000, 3.899999999999999900 ) ) ;
#5 = CYLINDRICAL_SURFACE ( 'NONE', #3, 1.100000000000000300 ) ;
#6 = DIRECTION ( 'NONE',  ( -1.000000000000000000, 0.0000000000000000000, 0.0000000000000000000 ) ) ;
#7 = DIRECTION ( 'NONE',  ( -0.0000000000000000000, -0.0000000000000000000, -1.000000000000000000 ) ) ;
#8 = CARTESIAN_POINT ( 'NONE',  ( 0.0000000000000000000, 0.0000000000000000000, 3.899999999999999900 ) ) ;
#9 = AXIS2_PLACEMENT_3D ( 'NONE', #8, #7, #6 ) ;
#10 = FACE_OUTER_BOUND ( 'NONE', #23, .T. ) ;
#11 = CYLINDRICAL_SURFACE ( 'NONE', #9, 1.100000000000000300 ) ;
#12 = FACE_OUTER_BOUND ( 'NONE', #20, .T. ) ;
#13 =( LENGTH_UNIT ( ) NAMED_UNIT ( * ) SI_UNIT ( .MILLI., .METRE. ) );
#14 = ADVANCED_FACE ( 'NONE', ( #12 ), #11, .F. ) ;
#15 = ORIENTED_EDGE ( 'NONE', *, *, #47, .F. ) ;
#16 = ORIENTED_EDGE ( 'NONE', *, *, #54, .T. ) ;
#17 = ORIENTED_EDGE ( 'NONE', *, *, #31, .F. ) ;
#18 = CLOSED_SHELL ( 'NONE', ( #22, #59, #48, #35, #32, #14 ) ) ;
#19 = ORIENTED_EDGE ( 'NONE', *, *, #30, .T. ) ;
#20 = EDGE_LOOP ( 'NONE', ( #15, #19, #16, #17 ) ) ;
#21 = MANIFOLD_SOLID_BREP ( 'NONE', #18 ) ;
#22 = ADVANCED_FACE ( 'NONE', ( #10 ), #5, .F. ) ;
#23 = EDGE_LOOP ( 'NONE', ( #24, #118, #114, #53 ) ) ;
#24 = ORIENTED_EDGE ( 'NONE', *, *, #25, .T. ) ;
#25 = EDGE_CURVE ( 'NONE', #56, #52, #139, .T. ) ;
#26 = EDGE_LOOP ( 'NONE', ( #41, #29 ) ) ;
#27 = ORIENTED_EDGE ( 'NONE', *, *, #62, .T. ) ;
#28 = EDGE_LOOP ( 'NONE', ( #34, #38 ) ) ;
#29 = ORIENTED_EDGE ( 'NONE', *, *, #117, .F. ) ;
#30 = EDGE_CURVE ( 'NONE', #52, #56, #134, .T. ) ;
#31 = EDGE_CURVE ( 'NONE', #46, #61, #128, .T. ) ;
#32 = ADVANCED_FACE ( 'NONE', ( #129 ), #187, .T. ) ;
#33 = EDGE_LOOP ( 'NONE', ( #36, #42, #43, #44 ) ) ;
#34 = ORIENTED_EDGE ( 'NONE', *, *, #55, .T. ) ;
#35 = ADVANCED_FACE ( 'NONE', ( #186, #181 ), #180, .F. ) ;
#36 = ORIENTED_EDGE ( 'NONE', *, *, #120, .F. ) ;
#37 = EDGE_CURVE ( 'NONE', #122, #121, #178, .T. ) ;
#38 = ORIENTED_EDGE ( 'NONE', *, *, #31, .T. ) ;
#39 = EDGE_LOOP ( 'NONE', ( #40, #45 ) ) ;
#40 = ORIENTED_EDGE ( 'NONE', *, *, #25, .F. ) ;
#41 = ORIENTED_EDGE ( 'NONE', *, *, #37, .F. ) ;
#42 = ORIENTED_EDGE ( 'NONE', *, *, #50, .F. ) ;
#43 = ORIENTED_EDGE ( 'NONE', *, *, #116, .T. ) ;
#44 = ORIENTED_EDGE ( 'NONE', *, *, #37, .T. ) ;
#45 = ORIENTED_EDGE ( 'NONE', *, *, #30, .F. ) ;
#46 = VERTEX_POINT ( 'NONE', #170 ) ;
#47 = EDGE_CURVE ( 'NONE', #52, #46, #169, .T. ) ;
#48 = ADVANCED_FACE ( 'NONE', ( #165, #164 ), #163, .T. ) ;
#49 = ORIENTED_EDGE ( 'NONE', *, *, #50, .T. ) ;
#50 = EDGE_CURVE ( 'NONE', #113, #63, #111, .T. ) ;
#51 = ORIENTED_EDGE ( 'NONE', *, *, #62, .F. ) ;
#52 = VERTEX_POINT ( 'NONE', #106 ) ;
#53 = ORIENTED_EDGE ( 'NONE', *, *, #54, .F. ) ;
#54 = EDGE_CURVE ( 'NONE', #56, #61, #105, .T. ) ;
#55 = EDGE_CURVE ( 'NONE', #61, #46, #101, .T. ) ;
#56 = VERTEX_POINT ( 'NONE', #96 ) ;
#57 = ORIENTED_EDGE ( 'NONE', *, *, #117, .T. ) ;
#58 = EDGE_LOOP ( 'NONE', ( #49, #27 ) ) ;
#59 = ADVANCED_FACE ( 'NONE', ( #95 ), #94, .T. ) ;
#60 = EDGE_LOOP ( 'NONE', ( #51, #119, #57, #115 ) ) ;
#61 = VERTEX_POINT ( 'NONE', #92 ) ;
#62 = EDGE_CURVE ( 'NONE', #63, #113, #88, .T. ) ;
#63 = VERTEX_POINT ( 'NONE', #83 ) ;
#64 = UNCERTAINTY_MEASURE_WITH_UNIT (LENGTH_MEASURE( 1.000000000000000100E-005 ), #13, 'distance_accuracy_value', 'NONE');
#65 =( NAMED_UNIT ( * ) SI_UNIT ( $, .STERADIAN. ) SOLID_ANGLE_UNIT ( ) );
#66 =( NAMED_UNIT ( * ) PLANE_ANGLE_UNIT ( ) SI_UNIT ( $, .RADIAN. ) );
#67 = CARTESIAN_POINT ( 'NONE',  ( -2.000000000000000000, 0.0000000000000000000, 0.0000000000000000000 ) ) ;
#68 = CARTESIAN_POINT ( 'NONE',  ( 2.000000000000000000, 2.449212707644754500E-016, 0.0000000000000000000 ) ) ;
#69 = DIRECTION ( 'NONE',  ( -0.0000000000000000000, -0.0000000000000000000, -1.000000000000000000 ) ) ;
#70 = VECTOR ( 'NONE', #69, 1000.000000000000000 ) ;
#71 = CARTESIAN_POINT ( 'NONE',  ( 2.000000000000000000, 2.449212707644754500E-016, 3.899999999999999900 ) ) ;
#72 = LINE ( 'NONE', #71, #70 ) ;
#73 = DIRECTION ( 'NONE',  ( 1.000000000000000000, 0.0000000000000000000, 0.0000000000000000000 ) ) ;
#74 = DIRECTION ( 'NONE',  ( 0.0000000000000000000, 0.0000000000000000000, 1.000000000000000000 ) ) ;
#75 = CARTESIAN_POINT ( 'NONE',  ( 0.0000000000000000000, 0.0000000000000000000, 0.0000000000000000000 ) ) ;
#76 = AXIS2_PLACEMENT_3D ( 'NONE', #75, #74, #73 ) ;
#77 = CIRCLE ( 'NONE', #76, 2.000000000000000000 ) ;
#78 = DIRECTION ( 'NONE',  ( -0.0000000000000000000, -0.0000000000000000000, -1.000000000000000000 ) ) ;
#79 = VECTOR ( 'NONE', #78, 1000.000000000000000 ) ;
#80 = CARTESIAN_POINT ( 'NONE',  ( -2.000000000000000000, 0.0000000000000000000, 3.899999999999999900 ) ) ;
#81 = LINE ( 'NONE', #80, #79 ) ;
#82 = CARTESIAN_POINT ( 'NONE',  ( -2.000000000000000000, 0.0000000000000000000, 3.899999999999999900 ) ) ;
#83 = CARTESIAN_POINT ( 'NONE',  ( 2.000000000000000000, 2.449212707644754500E-016, 3.899999999999999900 ) ) ;
#84 = DIRECTION ( 'NONE',  ( 1.000000000000000000, 0.0000000000000000000, 0.0000000000000000000 ) ) ;
#85 = DIRECTION ( 'NONE',  ( 0.0000000000000000000, 0.0000000000000000000, 1.000000000000000000 ) ) ;
#86 = CARTESIAN_POINT ( 'NONE',  ( 0.0000000000000000000, 0.0000000000000000000, 3.899999999999999900 ) ) ;
#87 = AXIS2_PLACEMENT_3D ( 'NONE', #86, #85, #84 ) ;
#88 = CIRCLE ( 'NONE', #87, 2.000000000000000000 ) ;
#89 = DIRECTION ( 'NONE',  ( -1.000000000000000000, 0.0000000000000000000, 0.0000000000000000000 ) ) ;
#90 = DIRECTION ( 'NONE',  ( -0.0000000000000000000, -0.0000000000000000000, -1.000000000000000000 ) ) ;
#91 = AXIS2_PLACEMENT_3D ( 'NONE', #93, #90, #89 ) ;
#92 = CARTESIAN_POINT ( 'NONE',  ( -1.100000000000000300, 0.0000000000000000000, 0.0000000000000000000 ) ) ;
#93 = CARTESIAN_POINT ( 'NONE',  ( 0.0000000000000000000, 0.0000000000000000000, 3.899999999999999900 ) ) ;
#94 = CYLINDRICAL_SURFACE ( 'NONE', #91, 2.000000000000000000 ) ;
#95 = FACE_OUTER_BOUND ( 'NONE', #60, .T. ) ;
#96 = CARTESIAN_POINT ( 'NONE',  ( -1.100000000000000300, 0.0000000000000000000, 3.899999999999999900 ) ) ;
#97 = DIRECTION ( 'NONE',  ( 1.000000000000000000, 0.0000000000000000000, 0.0000000000000000000 ) ) ;
#98 = DIRECTION ( 'NONE',  ( 0.0000000000000000000, 0.0000000000000000000, 1.000000000000000000 ) ) ;
#99 = CARTESIAN_POINT ( 'NONE',  ( 0.0000000000000000000, 0.0000000000000000000, 0.0000000000000000000 ) ) ;
#100 = AXIS2_PLACEMENT_3D ( 'NONE', #99, #98, #97 ) ;
#101 = CIRCLE ( 'NONE', #100, 1.100000000000000300 ) ;
#102 = DIRECTION ( 'NONE',  ( -0.0000000000000000000, -0.0000000000000000000, -1.000000000000000000 ) ) ;
#103 = VECTOR ( 'NONE', #102, 1000.000000000000000 ) ;
#104 = CARTESIAN_POINT ( 'NONE',  ( -1.100000000000000300, 0.0000000000000000000, 3.899999999999999900 ) ) ;
#105 = LINE ( 'NONE', #104, #103 ) ;
#106 = CARTESIAN_POINT ( 'NONE',  ( 1.100000000000000300, 1.347066989204615300E-016, 3.899999999999999900 ) ) ;
#107 = DIRECTION ( 'NONE',  ( 1.000000000000000000, 0.0000000000000000000, 0.0000000000000000000 ) ) ;
#108 = DIRECTION ( 'NONE',  ( 0.0000000000000000000, 0.0000000000000000000, 1.000000000000000000 ) ) ;
#109 = CARTESIAN_POINT ( 'NONE',  ( 0.0000000000000000000, 0.0000000000000000000, 3.899999999999999900 ) ) ;
#110 = AXIS2_PLACEMENT_3D ( 'NONE', #109, #108, #107 ) ;
#111 = CIRCLE ( 'NONE', #110, 2.000000000000000000 ) ;
#112 = DIRECTION ( 'NONE',  ( 1.000000000000000000, 0.0000000000000000000, -0.0000000000000000000 ) ) ;
#113 = VERTEX_POINT ( 'NONE', #82 ) ;
#114 = ORIENTED_EDGE ( 'NONE', *, *, #55, .F. ) ;
#115 = ORIENTED_EDGE ( 'NONE', *, *, #116, .F. ) ;
#116 = EDGE_CURVE ( 'NONE', #113, #122, #81, .T. ) ;
#117 = EDGE_CURVE ( 'NONE', #121, #122, #77, .T. ) ;
#118 = ORIENTED_EDGE ( 'NONE', *, *, #47, .T. ) ;
#119 = ORIENTED_EDGE ( 'NONE', *, *, #120, .T. ) ;
#120 = EDGE_CURVE ( 'NONE', #63, #121, #72, .T. ) ;
#121 = VERTEX_POINT ( 'NONE', #68 ) ;
#122 = VERTEX_POINT ( 'NONE', #67 ) ;
#123 = CARTESIAN_POINT ( 'NONE',  ( 0.0000000000000000000, 0.0000000000000000000, 0.0000000000000000000 ) ) ;
#124 = DIRECTION ( 'NONE',  ( 1.000000000000000000, 0.0000000000000000000, 0.0000000000000000000 ) ) ;
#125 = DIRECTION ( 'NONE',  ( 0.0000000000000000000, 0.0000000000000000000, 1.000000000000000000 ) ) ;
#126 = CARTESIAN_POINT ( 'NONE',  ( 0.0000000000000000000, 0.0000000000000000000, 0.0000000000000000000 ) ) ;
#127 = AXIS2_PLACEMENT_3D ( 'NONE', #126, #125, #124 ) ;
#128 = CIRCLE ( 'NONE', #127, 1.100000000000000300 ) ;
#129 = FACE_OUTER_BOUND ( 'NONE', #33, .T. ) ;
#130 = DIRECTION ( 'NONE',  ( 1.000000000000000000, 0.0000000000000000000, 0.0000000000000000000 ) ) ;
#131 = DIRECTION ( 'NONE',  ( 0.0000000000000000000, 0.0000000000000000000, 1.000000000000000000 ) ) ;
#132 = CARTESIAN_POINT ( 'NONE',  ( 0.0000000000000000000, 0.0000000000000000000, 3.899999999999999900 ) ) ;
#133 = AXIS2_PLACEMENT_3D ( 'NONE', #132, #131, #130 ) ;
#134 = CIRCLE ( 'NONE', #133, 1.100000000000000300 ) ;
#135 = DIRECTION ( 'NONE',  ( 1.000000000000000000, 0.0000000000000000000, 0.0000000000000000000 ) ) ;
#136 = DIRECTION ( 'NONE',  ( 0.0000000000000000000, 0.0000000000000000000, 1.000000000000000000 ) ) ;
#137 = CARTESIAN_POINT ( 'NONE',  ( 0.0000000000000000000, 0.0000000000000000000, 3.899999999999999900 ) ) ;
#138 = AXIS2_PLACEMENT_3D ( 'NONE', #137, #136, #135 ) ;
#139 = CIRCLE ( 'NONE', #138, 1.100000000000000300 ) ;
#140 = DIRECTION ( 'NONE',  ( 1.000000000000000000, 0.0000000000000000000, 0.0000000000000000000 ) ) ;
#141 = AXIS2_PLACEMENT_3D ( 'NONE', #123, #142, #140 ) ;
#142 = DIRECTION ( 'NONE',  ( 0.0000000000000000000, 0.0000000000000000000, 1.000000000000000000 ) ) ;
#143 =( GEOMETRIC_REPRESENTATION_CONTEXT ( 3 ) GLOBAL_UNCERTAINTY_ASSIGNED_CONTEXT ( ( #144 ) ) GLOBAL_UNIT_ASSIGNED_CONTEXT ( ( #147, #146, #145 ) ) REPRESENTATION_CONTEXT ( 'NONE', 'WORKASPACE' ) );
#144 = UNCERTAINTY_MEASURE_WITH_UNIT (LENGTH_MEASURE( 1.000000000000000100E-005 ), #147, 'distance_accuracy_value', 'NONE');
#145 =( NAMED_UNIT ( * ) SI_UNIT ( $, .STERADIAN. ) SOLID_ANGLE_UNIT ( ) );
#146 =( NAMED_UNIT ( * ) PLANE_ANGLE_UNIT ( ) SI_UNIT ( $, .RADIAN. ) );
#147 =( LENGTH_UNIT ( ) NAMED_UNIT ( * ) SI_UNIT ( .MILLI., .METRE. ) );
#148 = MECHANICAL_DESIGN_GEOMETRIC_PRESENTATION_REPRESENTATION (  '', ( #150 ), #143 ) ;
#149 = PRESENTATION_LAYER_ASSIGNMENT (  '', '', ( #150 ) ) ;
#150 = STYLED_ITEM ( 'NONE', ( #151 ), #158 ) ;
#151 = PRESENTATION_STYLE_ASSIGNMENT (( #152 ) ) ;
#152 = SURFACE_STYLE_USAGE ( .BOTH. , #153 ) ;
#153 = SURFACE_SIDE_STYLE ('',( #154 ) ) ;
#154 = SURFACE_STYLE_FILL_AREA ( #155 ) ;
#155 = FILL_AREA_STYLE ('',( #156 ) ) ;
#156 = FILL_AREA_STYLE_COLOUR ( '', #157 ) ;
#157 = COLOUR_RGB ( '',0.7960784313725489700, 0.8235294117647058400, 0.9372549019607843100 ) ;
#158 = ADVANCED_BREP_SHAPE_REPRESENTATION ( 'SP1', ( #21, #141 ), #159 ) ;
#159 =( GEOMETRIC_REPRESENTATION_CONTEXT ( 3 ) GLOBAL_UNCERTAINTY_ASSIGNED_CONTEXT ( ( #64 ) ) GLOBAL_UNIT_ASSIGNED_CONTEXT ( ( #13, #66, #65 ) ) REPRESENTATION_CONTEXT ( 'NONE', 'WORKASPACE' ) );
#160 = DIRECTION ( 'NONE',  ( 0.0000000000000000000, 0.0000000000000000000, 1.000000000000000000 ) ) ;
#161 = CARTESIAN_POINT ( 'NONE',  ( 0.0000000000000000000, 0.0000000000000000000, 3.899999999999999900 ) ) ;
#162 = AXIS2_PLACEMENT_3D ( 'NONE', #161, #160, #112 ) ;
#163 = PLANE ( 'NONE',  #162 ) ;
#164 = FACE_BOUND ( 'NONE', #39, .T. ) ;
#165 = FACE_OUTER_BOUND ( 'NONE', #58, .T. ) ;
#166 = DIRECTION ( 'NONE',  ( -0.0000000000000000000, -0.0000000000000000000, -1.000000000000000000 ) ) ;
#167 = VECTOR ( 'NONE', #166, 1000.000000000000000 ) ;
#168 = CARTESIAN_POINT ( 'NONE',  ( 1.100000000000000300, 1.347066989204615300E-016, 3.899999999999999900 ) ) ;
#169 = LINE ( 'NONE', #168, #167 ) ;
#170 = CARTESIAN_POINT ( 'NONE',  ( 1.100000000000000300, 1.347066989204615300E-016, 0.0000000000000000000 ) ) ;
#171 = DIRECTION ( 'NONE',  ( 1.000000000000000000, 0.0000000000000000000, 0.0000000000000000000 ) ) ;
#172 = DIRECTION ( 'NONE',  ( 0.0000000000000000000, 0.0000000000000000000, 1.000000000000000000 ) ) ;
#173 = CARTESIAN_POINT ( 'NONE',  ( 0.0000000000000000000, 0.0000000000000000000, 0.0000000000000000000 ) ) ;
#174 = AXIS2_PLACEMENT_3D ( 'NONE', #173, #172, #171 ) ;
#175 = DIRECTION ( 'NONE',  ( 1.000000000000000000, 0.0000000000000000000, -0.0000000000000000000 ) ) ;
#176 = DIRECTION ( 'NONE',  ( 0.0000000000000000000, 0.0000000000000000000, 1.000000000000000000 ) ) ;
#177 = CARTESIAN_POINT ( 'NONE',  ( 0.0000000000000000000, 0.0000000000000000000, 0.0000000000000000000 ) ) ;
#178 = CIRCLE ( 'NONE', #174, 2.000000000000000000 ) ;
#179 = AXIS2_PLACEMENT_3D ( 'NONE', #177, #176, #175 ) ;
#180 = PLANE ( 'NONE',  #179 ) ;
#181 = FACE_BOUND ( 'NONE', #28, .T. ) ;
#182 = DIRECTION ( 'NONE',  ( -1.000000000000000000, 0.0000000000000000000, 0.0000000000000000000 ) ) ;
#183 = DIRECTION ( 'NONE',  ( -0.0000000000000000000, -0.0000000000000000000, -1.000000000000000000 ) ) ;
#184 = CARTESIAN_POINT ( 'NONE',  ( 0.0000000000000000000, 0.0000000000000000000, 3.899999999999999900 ) ) ;
#185 = AXIS2_PLACEMENT_3D ( 'NONE', #184, #183, #182 ) ;
#186 = FACE_OUTER_BOUND ( 'NONE', #26, .T. ) ;
#187 = CYLINDRICAL_SURFACE ( 'NONE', #185, 2.000000000000000000 ) ;
#188 = APPLICATION_CONTEXT ( 'automotive_design' ) ;
#189 = APPLICATION_PROTOCOL_DEFINITION ( 'draft international standard', 'automotive_design', 1998, #190 ) ;
#190 = APPLICATION_CONTEXT ( 'automotive_design' ) ;
#191 = PRODUCT ( 'SP1', 'SP1', '', ( #192 ) ) ;
#192 = PRODUCT_CONTEXT ( 'NONE', #188, 'mechanical' ) ;
#193 = APPLICATION_PROTOCOL_DEFINITION ( 'draft international standard', 'automotive_design', 1998, #188 ) ;
#194 = SHAPE_DEFINITION_REPRESENTATION ( #195, #158 ) ;
#195 = PRODUCT_DEFINITION_SHAPE ( 'NONE', 'NONE',  #198 ) ;
#196 = PRODUCT_RELATED_PRODUCT_CATEGORY ( 'part', '', ( #191 ) ) ;
#197 = PRODUCT_DEFINITION_FORMATION_WITH_SPECIFIED_SOURCE ( 'ANY', '', #191, .NOT_KNOWN. ) ;
#198 = PRODUCT_DEFINITION ( 'UNKNOWN', '', #197, #199 ) ;
#199 = PRODUCT_DEFINITION_CONTEXT ( 'detailed design', #190, 'design' ) ;
ENDSEC;
END-ISO-10303-21;
