ISO-10303-21;
HEADER;
FILE_DESCRIPTION((''),'2;1');
FILE_NAME('AX123_TIRE','2011-11-07T',('Andy'),(''),
'PRO/ENGINEER BY PARAMETRIC TECHNOLOGY CORPORATION, 2009060',
'PRO/ENGINEER BY PARAMETRIC TECHNOLOGY CORPORATION, 2009060','');
FILE_SCHEMA(('CONFIG_CONTROL_DESIGN'));
ENDSEC;
DATA;
#1=CARTESIAN_POINT('',(-2.5E0,0.E0,0.E0));
#2=DIRECTION('',(1.E0,0.E0,0.E0));
#3=DIRECTION('',(0.E0,0.E0,-1.E0));
#4=AXIS2_PLACEMENT_3D('',#1,#2,#3);
#6=DIRECTION('',(1.E0,0.E0,0.E0));
#7=VECTOR('',#6,1.5E0);
#8=CARTESIAN_POINT('',(-2.5E0,0.E0,-2.2E1));
#9=LINE('',#8,#7);
#10=DIRECTION('',(1.E0,0.E0,0.E0));
#11=VECTOR('',#10,1.5E0);
#12=CARTESIAN_POINT('',(-2.5E0,0.E0,2.2E1));
#13=LINE('',#12,#11);
#14=CARTESIAN_POINT('',(-2.5E0,0.E0,0.E0));
#15=DIRECTION('',(-1.E0,0.E0,0.E0));
#16=DIRECTION('',(0.E0,0.E0,-1.E0));
#17=AXIS2_PLACEMENT_3D('',#14,#15,#16);
#19=CARTESIAN_POINT('',(-1.E0,0.E0,0.E0));
#20=DIRECTION('',(-1.E0,0.E0,0.E0));
#21=DIRECTION('',(0.E0,0.E0,-1.E0));
#22=AXIS2_PLACEMENT_3D('',#19,#20,#21);
#24=CARTESIAN_POINT('',(-1.E0,0.E0,0.E0));
#25=DIRECTION('',(1.E0,0.E0,0.E0));
#26=DIRECTION('',(0.E0,0.E0,-1.E0));
#27=AXIS2_PLACEMENT_3D('',#24,#25,#26);
#29=CARTESIAN_POINT('',(-1.E0,0.E0,0.E0));
#30=DIRECTION('',(1.E0,0.E0,0.E0));
#31=DIRECTION('',(0.E0,0.E0,-1.E0));
#32=AXIS2_PLACEMENT_3D('',#29,#30,#31);
#34=DIRECTION('',(1.E0,0.E0,0.E0));
#35=VECTOR('',#34,2.E0);
#36=CARTESIAN_POINT('',(-1.E0,0.E0,-2.45E1));
#37=LINE('',#36,#35);
#38=DIRECTION('',(1.E0,0.E0,0.E0));
#39=VECTOR('',#38,2.E0);
#40=CARTESIAN_POINT('',(-1.E0,0.E0,2.45E1));
#41=LINE('',#40,#39);
#42=CARTESIAN_POINT('',(-1.E0,0.E0,0.E0));
#43=DIRECTION('',(-1.E0,0.E0,0.E0));
#44=DIRECTION('',(0.E0,0.E0,-1.E0));
#45=AXIS2_PLACEMENT_3D('',#42,#43,#44);
#47=CARTESIAN_POINT('',(1.E0,0.E0,0.E0));
#48=DIRECTION('',(-1.E0,0.E0,0.E0));
#49=DIRECTION('',(0.E0,0.E0,-1.E0));
#50=AXIS2_PLACEMENT_3D('',#47,#48,#49);
#52=CARTESIAN_POINT('',(1.E0,0.E0,0.E0));
#53=DIRECTION('',(1.E0,0.E0,0.E0));
#54=DIRECTION('',(0.E0,0.E0,-1.E0));
#55=AXIS2_PLACEMENT_3D('',#52,#53,#54);
#57=CARTESIAN_POINT('',(1.E0,0.E0,0.E0));
#58=DIRECTION('',(1.E0,0.E0,0.E0));
#59=DIRECTION('',(0.E0,0.E0,-1.E0));
#60=AXIS2_PLACEMENT_3D('',#57,#58,#59);
#62=DIRECTION('',(1.E0,0.E0,0.E0));
#63=VECTOR('',#62,1.5E0);
#64=CARTESIAN_POINT('',(1.E0,0.E0,-2.2E1));
#65=LINE('',#64,#63);
#66=DIRECTION('',(1.E0,0.E0,0.E0));
#67=VECTOR('',#66,1.5E0);
#68=CARTESIAN_POINT('',(1.E0,0.E0,2.2E1));
#69=LINE('',#68,#67);
#70=CARTESIAN_POINT('',(1.E0,0.E0,0.E0));
#71=DIRECTION('',(-1.E0,0.E0,0.E0));
#72=DIRECTION('',(0.E0,0.E0,-1.E0));
#73=AXIS2_PLACEMENT_3D('',#70,#71,#72);
#75=CARTESIAN_POINT('',(2.5E0,0.E0,0.E0));
#76=DIRECTION('',(-1.E0,0.E0,0.E0));
#77=DIRECTION('',(0.E0,0.E0,-1.E0));
#78=AXIS2_PLACEMENT_3D('',#75,#76,#77);
#80=CARTESIAN_POINT('',(2.5E0,0.E0,0.E0));
#81=DIRECTION('',(1.E0,0.E0,0.E0));
#82=DIRECTION('',(0.E0,0.E0,-1.E0));
#83=AXIS2_PLACEMENT_3D('',#80,#81,#82);
#85=CARTESIAN_POINT('',(1.3E0,0.E0,0.E0));
#86=DIRECTION('',(-1.E0,0.E0,0.E0));
#87=DIRECTION('',(0.E0,0.E0,1.E0));
#88=AXIS2_PLACEMENT_3D('',#85,#86,#87);
#90=CARTESIAN_POINT('',(2.5E0,0.E0,0.E0));
#91=DIRECTION('',(-1.E0,0.E0,0.E0));
#92=DIRECTION('',(0.E0,0.E0,1.E0));
#93=AXIS2_PLACEMENT_3D('',#90,#91,#92);
#95=CARTESIAN_POINT('',(1.3E0,-2.142952482131E-11,2.48E1));
#96=DIRECTION('',(0.E0,1.E0,8.640943863214E-13));
#97=DIRECTION('',(0.E0,-8.640943863214E-13,1.E0));
#98=AXIS2_PLACEMENT_3D('',#95,#96,#97);
#100=DIRECTION('',(-1.E0,9.631849271155E-12,0.E0));
#101=VECTOR('',#100,2.6E0);
#102=CARTESIAN_POINT('',(1.3E0,-1.377277200170E-12,-2.6E1));
#103=LINE('',#102,#101);
#104=DIRECTION('',(-1.E0,-9.632709960879E-12,0.E0));
#105=VECTOR('',#104,2.6E0);
#106=CARTESIAN_POINT('',(1.3E0,1.377280669617E-12,2.6E1));
#107=LINE('',#106,#105);
#108=CARTESIAN_POINT('',(1.3E0,0.E0,0.E0));
#109=DIRECTION('',(-1.E0,0.E0,0.E0));
#110=DIRECTION('',(0.E0,0.E0,-1.E0));
#111=AXIS2_PLACEMENT_3D('',#108,#109,#110);
#113=CARTESIAN_POINT('',(2.5E0,0.E0,0.E0));
#114=DIRECTION('',(-1.E0,0.E0,0.E0));
#115=DIRECTION('',(0.E0,0.E0,-1.E0));
#116=AXIS2_PLACEMENT_3D('',#113,#114,#115);
#118=CARTESIAN_POINT('',(1.3E0,2.143511756980E-11,-2.48E1));
#119=DIRECTION('',(0.E0,-1.E0,-8.643199003733E-13));
#120=DIRECTION('',(0.E0,8.643199003733E-13,-1.E0));
#121=AXIS2_PLACEMENT_3D('',#118,#119,#120);
#123=CARTESIAN_POINT('',(-2.5E0,0.E0,0.E0));
#124=DIRECTION('',(-1.E0,0.E0,0.E0));
#125=DIRECTION('',(0.E0,0.E0,-1.E0));
#126=AXIS2_PLACEMENT_3D('',#123,#124,#125);
#128=CARTESIAN_POINT('',(-1.3E0,0.E0,0.E0));
#129=DIRECTION('',(-1.E0,0.E0,0.E0));
#130=DIRECTION('',(0.E0,0.E0,-1.E0));
#131=AXIS2_PLACEMENT_3D('',#128,#129,#130);
#133=CARTESIAN_POINT('',(-1.3E0,0.E0,-2.48E1));
#134=DIRECTION('',(0.E0,-1.E0,0.E0));
#135=DIRECTION('',(-1.E0,0.E0,0.E0));
#136=AXIS2_PLACEMENT_3D('',#133,#134,#135);
#138=CARTESIAN_POINT('',(-2.5E0,0.E0,0.E0));
#139=DIRECTION('',(-1.E0,0.E0,0.E0));
#140=DIRECTION('',(0.E0,0.E0,1.E0));
#141=AXIS2_PLACEMENT_3D('',#138,#139,#140);
#143=CARTESIAN_POINT('',(-1.3E0,0.E0,0.E0));
#144=DIRECTION('',(-1.E0,0.E0,0.E0));
#145=DIRECTION('',(0.E0,0.E0,1.E0));
#146=AXIS2_PLACEMENT_3D('',#143,#144,#145);
#148=CARTESIAN_POINT('',(-1.3E0,0.E0,2.48E1));
#149=DIRECTION('',(0.E0,1.E0,0.E0));
#150=DIRECTION('',(-1.E0,0.E0,0.E0));
#151=AXIS2_PLACEMENT_3D('',#148,#149,#150);
#153=CARTESIAN_POINT('',(-2.5E0,0.E0,-2.2E1));
#154=CARTESIAN_POINT('',(-1.E0,0.E0,-2.2E1));
#155=VERTEX_POINT('',#153);
#156=VERTEX_POINT('',#154);
#157=CARTESIAN_POINT('',(-1.E0,0.E0,-2.45E1));
#158=CARTESIAN_POINT('',(1.E0,0.E0,-2.45E1));
#159=VERTEX_POINT('',#157);
#160=VERTEX_POINT('',#158);
#161=CARTESIAN_POINT('',(1.E0,0.E0,-2.2E1));
#162=CARTESIAN_POINT('',(2.5E0,0.E0,-2.2E1));
#163=VERTEX_POINT('',#161);
#164=VERTEX_POINT('',#162);
#165=CARTESIAN_POINT('',(-2.5E0,0.E0,2.2E1));
#166=CARTESIAN_POINT('',(-1.E0,0.E0,2.2E1));
#167=VERTEX_POINT('',#165);
#168=VERTEX_POINT('',#166);
#169=CARTESIAN_POINT('',(-1.E0,0.E0,2.45E1));
#170=CARTESIAN_POINT('',(1.E0,0.E0,2.45E1));
#171=VERTEX_POINT('',#169);
#172=VERTEX_POINT('',#170);
#173=CARTESIAN_POINT('',(1.E0,0.E0,2.2E1));
#174=CARTESIAN_POINT('',(2.5E0,0.E0,2.2E1));
#175=VERTEX_POINT('',#173);
#176=VERTEX_POINT('',#174);
#177=CARTESIAN_POINT('',(1.3E0,0.E0,2.6E1));
#178=CARTESIAN_POINT('',(1.3E0,0.E0,-2.6E1));
#179=VERTEX_POINT('',#177);
#180=VERTEX_POINT('',#178);
#181=CARTESIAN_POINT('',(2.5E0,0.E0,2.479999992442E1));
#182=CARTESIAN_POINT('',(2.5E0,0.E0,-2.479999992442E1));
#183=VERTEX_POINT('',#181);
#184=VERTEX_POINT('',#182);
#185=CARTESIAN_POINT('',(-2.5E0,0.E0,2.479999986041E1));
#186=CARTESIAN_POINT('',(-2.5E0,0.E0,-2.479999986041E1));
#187=VERTEX_POINT('',#185);
#188=VERTEX_POINT('',#186);
#189=CARTESIAN_POINT('',(-1.3E0,0.E0,2.6E1));
#190=CARTESIAN_POINT('',(-1.3E0,0.E0,-2.6E1));
#191=VERTEX_POINT('',#189);
#192=VERTEX_POINT('',#190);
#193=CARTESIAN_POINT('',(-2.75E0,0.E0,0.E0));
#194=DIRECTION('',(1.E0,0.E0,0.E0));
#195=DIRECTION('',(0.E0,0.E0,1.E0));
#196=AXIS2_PLACEMENT_3D('',#193,#194,#195);
#197=CYLINDRICAL_SURFACE('',#196,2.2E1);
#199=ORIENTED_EDGE('',*,*,#198,.F.);
#201=ORIENTED_EDGE('',*,*,#200,.T.);
#203=ORIENTED_EDGE('',*,*,#202,.T.);
#205=ORIENTED_EDGE('',*,*,#204,.F.);
#206=EDGE_LOOP('',(#199,#201,#203,#205));
#207=FACE_OUTER_BOUND('',#206,.F.);
#208=ADVANCED_FACE('',(#207),#197,.F.);
#209=CARTESIAN_POINT('',(-2.75E0,0.E0,0.E0));
#210=DIRECTION('',(1.E0,0.E0,0.E0));
#211=DIRECTION('',(0.E0,0.E0,1.E0));
#212=AXIS2_PLACEMENT_3D('',#209,#210,#211);
#213=CYLINDRICAL_SURFACE('',#212,2.2E1);
#214=ORIENTED_EDGE('',*,*,#198,.T.);
#216=ORIENTED_EDGE('',*,*,#215,.T.);
#217=ORIENTED_EDGE('',*,*,#202,.F.);
#219=ORIENTED_EDGE('',*,*,#218,.F.);
#220=EDGE_LOOP('',(#214,#216,#217,#219));
#221=FACE_OUTER_BOUND('',#220,.F.);
#222=ADVANCED_FACE('',(#221),#213,.F.);
#223=CARTESIAN_POINT('',(-1.E0,0.E0,0.E0));
#224=DIRECTION('',(1.E0,0.E0,0.E0));
#225=DIRECTION('',(0.E0,0.E0,1.E0));
#226=AXIS2_PLACEMENT_3D('',#223,#224,#225);
#227=PLANE('',#226);
#229=ORIENTED_EDGE('',*,*,#228,.F.);
#231=ORIENTED_EDGE('',*,*,#230,.T.);
#232=EDGE_LOOP('',(#229,#231));
#233=FACE_OUTER_BOUND('',#232,.F.);
#234=ORIENTED_EDGE('',*,*,#215,.F.);
#235=ORIENTED_EDGE('',*,*,#204,.T.);
#236=EDGE_LOOP('',(#234,#235));
#237=FACE_BOUND('',#236,.F.);
#238=ADVANCED_FACE('',(#233,#237),#227,.T.);
#239=CARTESIAN_POINT('',(-2.75E0,0.E0,0.E0));
#240=DIRECTION('',(1.E0,0.E0,0.E0));
#241=DIRECTION('',(0.E0,0.E0,1.E0));
#242=AXIS2_PLACEMENT_3D('',#239,#240,#241);
#243=CYLINDRICAL_SURFACE('',#242,2.45E1);
#245=ORIENTED_EDGE('',*,*,#244,.F.);
#246=ORIENTED_EDGE('',*,*,#228,.T.);
#248=ORIENTED_EDGE('',*,*,#247,.T.);
#250=ORIENTED_EDGE('',*,*,#249,.F.);
#251=EDGE_LOOP('',(#245,#246,#248,#250));
#252=FACE_OUTER_BOUND('',#251,.F.);
#253=ADVANCED_FACE('',(#252),#243,.F.);
#254=CARTESIAN_POINT('',(-2.75E0,0.E0,0.E0));
#255=DIRECTION('',(1.E0,0.E0,0.E0));
#256=DIRECTION('',(0.E0,0.E0,1.E0));
#257=AXIS2_PLACEMENT_3D('',#254,#255,#256);
#258=CYLINDRICAL_SURFACE('',#257,2.45E1);
#259=ORIENTED_EDGE('',*,*,#244,.T.);
#261=ORIENTED_EDGE('',*,*,#260,.T.);
#262=ORIENTED_EDGE('',*,*,#247,.F.);
#263=ORIENTED_EDGE('',*,*,#230,.F.);
#264=EDGE_LOOP('',(#259,#261,#262,#263));
#265=FACE_OUTER_BOUND('',#264,.F.);
#266=ADVANCED_FACE('',(#265),#258,.F.);
#267=CARTESIAN_POINT('',(1.E0,0.E0,0.E0));
#268=DIRECTION('',(1.E0,0.E0,0.E0));
#269=DIRECTION('',(0.E0,0.E0,1.E0));
#270=AXIS2_PLACEMENT_3D('',#267,#268,#269);
#271=PLANE('',#270);
#272=ORIENTED_EDGE('',*,*,#260,.F.);
#273=ORIENTED_EDGE('',*,*,#249,.T.);
#274=EDGE_LOOP('',(#272,#273));
#275=FACE_OUTER_BOUND('',#274,.F.);
#277=ORIENTED_EDGE('',*,*,#276,.F.);
#279=ORIENTED_EDGE('',*,*,#278,.T.);
#280=EDGE_LOOP('',(#277,#279));
#281=FACE_BOUND('',#280,.F.);
#282=ADVANCED_FACE('',(#275,#281),#271,.F.);
#283=CARTESIAN_POINT('',(-2.75E0,0.E0,0.E0));
#284=DIRECTION('',(1.E0,0.E0,0.E0));
#285=DIRECTION('',(0.E0,0.E0,1.E0));
#286=AXIS2_PLACEMENT_3D('',#283,#284,#285);
#287=CYLINDRICAL_SURFACE('',#286,2.2E1);
#289=ORIENTED_EDGE('',*,*,#288,.F.);
#290=ORIENTED_EDGE('',*,*,#276,.T.);
#292=ORIENTED_EDGE('',*,*,#291,.T.);
#294=ORIENTED_EDGE('',*,*,#293,.F.);
#295=EDGE_LOOP('',(#289,#290,#292,#294));
#296=FACE_OUTER_BOUND('',#295,.F.);
#297=ADVANCED_FACE('',(#296),#287,.F.);
#298=CARTESIAN_POINT('',(-2.75E0,0.E0,0.E0));
#299=DIRECTION('',(1.E0,0.E0,0.E0));
#300=DIRECTION('',(0.E0,0.E0,1.E0));
#301=AXIS2_PLACEMENT_3D('',#298,#299,#300);
#302=CYLINDRICAL_SURFACE('',#301,2.2E1);
#303=ORIENTED_EDGE('',*,*,#288,.T.);
#305=ORIENTED_EDGE('',*,*,#304,.T.);
#306=ORIENTED_EDGE('',*,*,#291,.F.);
#307=ORIENTED_EDGE('',*,*,#278,.F.);
#308=EDGE_LOOP('',(#303,#305,#306,#307));
#309=FACE_OUTER_BOUND('',#308,.F.);
#310=ADVANCED_FACE('',(#309),#302,.F.);
#311=CARTESIAN_POINT('',(2.5E0,0.E0,0.E0));
#312=DIRECTION('',(1.E0,0.E0,0.E0));
#313=DIRECTION('',(0.E0,0.E0,1.E0));
#314=AXIS2_PLACEMENT_3D('',#311,#312,#313);
#315=PLANE('',#314);
#317=ORIENTED_EDGE('',*,*,#316,.T.);
#319=ORIENTED_EDGE('',*,*,#318,.T.);
#320=EDGE_LOOP('',(#317,#319));
#321=FACE_OUTER_BOUND('',#320,.F.);
#322=ORIENTED_EDGE('',*,*,#304,.F.);
#323=ORIENTED_EDGE('',*,*,#293,.T.);
#324=EDGE_LOOP('',(#322,#323));
#325=FACE_BOUND('',#324,.F.);
#326=ADVANCED_FACE('',(#321,#325),#315,.T.);
#327=CARTESIAN_POINT('',(1.3E0,0.E0,0.E0));
#328=DIRECTION('',(1.E0,0.E0,0.E0));
#329=DIRECTION('',(0.E0,-4.191360965491E-3,9.999912162081E-1));
#330=AXIS2_PLACEMENT_3D('',#327,#328,#329);
#331=TOROIDAL_SURFACE('',#330,2.48E1,1.2E0);
#333=ORIENTED_EDGE('',*,*,#332,.T.);
#335=ORIENTED_EDGE('',*,*,#334,.T.);
#336=ORIENTED_EDGE('',*,*,#316,.F.);
#338=ORIENTED_EDGE('',*,*,#337,.F.);
#339=EDGE_LOOP('',(#333,#335,#336,#338));
#340=FACE_OUTER_BOUND('',#339,.F.);
#341=ADVANCED_FACE('',(#340),#331,.T.);
#342=CARTESIAN_POINT('',(-2.75E0,0.E0,0.E0));
#343=DIRECTION('',(1.E0,0.E0,0.E0));
#344=DIRECTION('',(0.E0,0.E0,1.E0));
#345=AXIS2_PLACEMENT_3D('',#342,#343,#344);
#346=CYLINDRICAL_SURFACE('',#345,2.6E1);
#347=ORIENTED_EDGE('',*,*,#332,.F.);
#349=ORIENTED_EDGE('',*,*,#348,.T.);
#351=ORIENTED_EDGE('',*,*,#350,.T.);
#353=ORIENTED_EDGE('',*,*,#352,.F.);
#354=EDGE_LOOP('',(#347,#349,#351,#353));
#355=FACE_OUTER_BOUND('',#354,.F.);
#356=ADVANCED_FACE('',(#355),#346,.T.);
#357=CARTESIAN_POINT('',(-2.75E0,0.E0,0.E0));
#358=DIRECTION('',(1.E0,0.E0,0.E0));
#359=DIRECTION('',(0.E0,0.E0,1.E0));
#360=AXIS2_PLACEMENT_3D('',#357,#358,#359);
#361=CYLINDRICAL_SURFACE('',#360,2.6E1);
#363=ORIENTED_EDGE('',*,*,#362,.F.);
#364=ORIENTED_EDGE('',*,*,#352,.T.);
#366=ORIENTED_EDGE('',*,*,#365,.T.);
#367=ORIENTED_EDGE('',*,*,#348,.F.);
#368=EDGE_LOOP('',(#363,#364,#366,#367));
#369=FACE_OUTER_BOUND('',#368,.F.);
#370=ADVANCED_FACE('',(#369),#361,.T.);
#371=CARTESIAN_POINT('',(1.3E0,0.E0,0.E0));
#372=DIRECTION('',(1.E0,0.E0,0.E0));
#373=DIRECTION('',(0.E0,4.191360965491E-3,-9.999912162081E-1));
#374=AXIS2_PLACEMENT_3D('',#371,#372,#373);
#375=TOROIDAL_SURFACE('',#374,2.48E1,1.2E0);
#376=ORIENTED_EDGE('',*,*,#362,.T.);
#377=ORIENTED_EDGE('',*,*,#337,.T.);
#378=ORIENTED_EDGE('',*,*,#318,.F.);
#379=ORIENTED_EDGE('',*,*,#334,.F.);
#380=EDGE_LOOP('',(#376,#377,#378,#379));
#381=FACE_OUTER_BOUND('',#380,.F.);
#382=ADVANCED_FACE('',(#381),#375,.T.);
#383=CARTESIAN_POINT('',(-1.3E0,0.E0,0.E0));
#384=DIRECTION('',(1.E0,0.E0,0.E0));
#385=DIRECTION('',(0.E0,6.192279803106E-3,-9.999808276516E-1));
#386=AXIS2_PLACEMENT_3D('',#383,#384,#385);
#387=TOROIDAL_SURFACE('',#386,2.48E1,1.2E0);
#389=ORIENTED_EDGE('',*,*,#388,.T.);
#391=ORIENTED_EDGE('',*,*,#390,.T.);
#392=ORIENTED_EDGE('',*,*,#365,.F.);
#394=ORIENTED_EDGE('',*,*,#393,.F.);
#395=EDGE_LOOP('',(#389,#391,#392,#394));
#396=FACE_OUTER_BOUND('',#395,.F.);
#397=ADVANCED_FACE('',(#396),#387,.T.);
#398=CARTESIAN_POINT('',(-2.5E0,0.E0,0.E0));
#399=DIRECTION('',(1.E0,0.E0,0.E0));
#400=DIRECTION('',(0.E0,0.E0,1.E0));
#401=AXIS2_PLACEMENT_3D('',#398,#399,#400);
#402=PLANE('',#401);
#404=ORIENTED_EDGE('',*,*,#403,.F.);
#405=ORIENTED_EDGE('',*,*,#388,.F.);
#406=EDGE_LOOP('',(#404,#405));
#407=FACE_OUTER_BOUND('',#406,.F.);
#408=ORIENTED_EDGE('',*,*,#200,.F.);
#409=ORIENTED_EDGE('',*,*,#218,.T.);
#410=EDGE_LOOP('',(#408,#409));
#411=FACE_BOUND('',#410,.F.);
#412=ADVANCED_FACE('',(#407,#411),#402,.F.);
#413=CARTESIAN_POINT('',(-1.3E0,0.E0,0.E0));
#414=DIRECTION('',(1.E0,0.E0,0.E0));
#415=DIRECTION('',(0.E0,-6.192279803106E-3,9.999808276516E-1));
#416=AXIS2_PLACEMENT_3D('',#413,#414,#415);
#417=TOROIDAL_SURFACE('',#416,2.48E1,1.2E0);
#418=ORIENTED_EDGE('',*,*,#403,.T.);
#419=ORIENTED_EDGE('',*,*,#393,.T.);
#420=ORIENTED_EDGE('',*,*,#350,.F.);
#421=ORIENTED_EDGE('',*,*,#390,.F.);
#422=EDGE_LOOP('',(#418,#419,#420,#421));
#423=FACE_OUTER_BOUND('',#422,.F.);
#424=ADVANCED_FACE('',(#423),#417,.T.);
#425=CLOSED_SHELL('',(#208,#222,#238,#253,#266,#282,#297,#310,#326,#341,#356,
#370,#382,#397,#412,#424));
#426=MANIFOLD_SOLID_BREP('',#425);
#427=(LENGTH_UNIT()NAMED_UNIT(*)SI_UNIT(.MILLI.,.METRE.));
#428=DIMENSIONAL_EXPONENTS(0.E0,0.E0,0.E0,0.E0,0.E0,0.E0,0.E0);
#429=(NAMED_UNIT(*)PLANE_ANGLE_UNIT()SI_UNIT($,.RADIAN.));
#430=PLANE_ANGLE_MEASURE_WITH_UNIT(PLANE_ANGLE_MEASURE(1.745329251994E-2),#429);
#431=(CONVERSION_BASED_UNIT('DEGREE',#430)NAMED_UNIT(#428)PLANE_ANGLE_UNIT());
#432=(NAMED_UNIT(*)SI_UNIT($,.STERADIAN.)SOLID_ANGLE_UNIT());
#433=UNCERTAINTY_MEASURE_WITH_UNIT(LENGTH_MEASURE(7.370593849001E-3),#427,
'closure',
'Maximum model space distance between geometric entities at asserted connectivities');
#434=(GEOMETRIC_REPRESENTATION_CONTEXT(3)GLOBAL_UNCERTAINTY_ASSIGNED_CONTEXT((
#433))GLOBAL_UNIT_ASSIGNED_CONTEXT((#427,#431,#432))REPRESENTATION_CONTEXT
('ID1','3'));
#436=APPLICATION_CONTEXT(
'CONFIGURATION CONTROLLED 3D DESIGNS OF MECHANICAL PARTS AND ASSEMBLIES');
#437=APPLICATION_PROTOCOL_DEFINITION('international standard',
'config_control_design',1994,#436);
#438=DESIGN_CONTEXT('',#436,'design');
#439=MECHANICAL_CONTEXT('',#436,'mechanical');
#440=PRODUCT('AX123_TIRE','AX123_TIRE','NOT SPECIFIED',(#439));
#441=PRODUCT_DEFINITION_FORMATION_WITH_SPECIFIED_SOURCE('13','LAST_VERSION',
#440,.MADE.);
#445=PRODUCT_CATEGORY('part','');
#446=PRODUCT_RELATED_PRODUCT_CATEGORY('detail','',(#440));
#447=PRODUCT_CATEGORY_RELATIONSHIP('','',#445,#446);
#448=SECURITY_CLASSIFICATION_LEVEL('unclassified');
#449=SECURITY_CLASSIFICATION('','',#448);
#450=CC_DESIGN_SECURITY_CLASSIFICATION(#449,(#441));
#451=APPROVAL_STATUS('approved');
#452=APPROVAL(#451,'');
#453=CC_DESIGN_APPROVAL(#452,(#449,#441,#442));
#454=CALENDAR_DATE(111,7,11);
#455=COORDINATED_UNIVERSAL_TIME_OFFSET(9,0,.AHEAD.);
#456=LOCAL_TIME(18,0,5.3E1,#455);
#457=DATE_AND_TIME(#454,#456);
#458=APPROVAL_DATE_TIME(#457,#452);
#459=DATE_TIME_ROLE('creation_date');
#460=CC_DESIGN_DATE_AND_TIME_ASSIGNMENT(#457,#459,(#442));
#461=DATE_TIME_ROLE('classification_date');
#462=CC_DESIGN_DATE_AND_TIME_ASSIGNMENT(#457,#461,(#449));
#463=PERSON('UNSPECIFIED','UNSPECIFIED',$,$,$,$);
#464=ORGANIZATION('UNSPECIFIED','UNSPECIFIED','UNSPECIFIED');
#465=PERSON_AND_ORGANIZATION(#463,#464);
#466=APPROVAL_ROLE('approver');
#467=APPROVAL_PERSON_ORGANIZATION(#465,#452,#466);
#468=PERSON_AND_ORGANIZATION_ROLE('creator');
#469=CC_DESIGN_PERSON_AND_ORGANIZATION_ASSIGNMENT(#465,#468,(#441,#442));
#470=PERSON_AND_ORGANIZATION_ROLE('design_supplier');
#471=CC_DESIGN_PERSON_AND_ORGANIZATION_ASSIGNMENT(#465,#470,(#441));
#472=PERSON_AND_ORGANIZATION_ROLE('classification_officer');
#473=CC_DESIGN_PERSON_AND_ORGANIZATION_ASSIGNMENT(#465,#472,(#449));
#474=PERSON_AND_ORGANIZATION_ROLE('design_owner');
#475=CC_DESIGN_PERSON_AND_ORGANIZATION_ASSIGNMENT(#465,#474,(#440));
#5=CIRCLE('',#4,2.2E1);
#18=CIRCLE('',#17,2.2E1);
#23=CIRCLE('',#22,2.2E1);
#28=CIRCLE('',#27,2.2E1);
#33=CIRCLE('',#32,2.45E1);
#46=CIRCLE('',#45,2.45E1);
#51=CIRCLE('',#50,2.45E1);
#56=CIRCLE('',#55,2.45E1);
#61=CIRCLE('',#60,2.2E1);
#74=CIRCLE('',#73,2.2E1);
#79=CIRCLE('',#78,2.2E1);
#84=CIRCLE('',#83,2.2E1);
#89=CIRCLE('',#88,2.6E1);
#94=CIRCLE('',#93,2.479999992442E1);
#99=CIRCLE('',#98,1.2E0);
#112=CIRCLE('',#111,2.6E1);
#117=CIRCLE('',#116,2.479999992442E1);
#122=CIRCLE('',#121,1.2E0);
#127=CIRCLE('',#126,2.479999986041E1);
#132=CIRCLE('',#131,2.6E1);
#137=CIRCLE('',#136,1.2E0);
#142=CIRCLE('',#141,2.479999986041E1);
#147=CIRCLE('',#146,2.6E1);
#152=CIRCLE('',#151,1.2E0);
#198=EDGE_CURVE('',#155,#156,#9,.T.);
#200=EDGE_CURVE('',#155,#167,#5,.T.);
#202=EDGE_CURVE('',#167,#168,#13,.T.);
#204=EDGE_CURVE('',#156,#168,#28,.T.);
#215=EDGE_CURVE('',#156,#168,#23,.T.);
#218=EDGE_CURVE('',#155,#167,#18,.T.);
#228=EDGE_CURVE('',#159,#171,#33,.T.);
#230=EDGE_CURVE('',#159,#171,#46,.T.);
#244=EDGE_CURVE('',#159,#160,#37,.T.);
#247=EDGE_CURVE('',#171,#172,#41,.T.);
#249=EDGE_CURVE('',#160,#172,#56,.T.);
#260=EDGE_CURVE('',#160,#172,#51,.T.);
#276=EDGE_CURVE('',#163,#175,#61,.T.);
#278=EDGE_CURVE('',#163,#175,#74,.T.);
#288=EDGE_CURVE('',#163,#164,#65,.T.);
#291=EDGE_CURVE('',#175,#176,#69,.T.);
#293=EDGE_CURVE('',#164,#176,#84,.T.);
#304=EDGE_CURVE('',#164,#176,#79,.T.);
#316=EDGE_CURVE('',#183,#184,#94,.T.);
#318=EDGE_CURVE('',#184,#183,#117,.T.);
#332=EDGE_CURVE('',#179,#180,#89,.T.);
#334=EDGE_CURVE('',#180,#184,#122,.T.);
#337=EDGE_CURVE('',#179,#183,#99,.T.);
#348=EDGE_CURVE('',#179,#191,#107,.T.);
#350=EDGE_CURVE('',#191,#192,#147,.T.);
#352=EDGE_CURVE('',#180,#192,#103,.T.);
#362=EDGE_CURVE('',#180,#179,#112,.T.);
#365=EDGE_CURVE('',#192,#191,#132,.T.);
#388=EDGE_CURVE('',#188,#187,#127,.T.);
#390=EDGE_CURVE('',#187,#191,#152,.T.);
#393=EDGE_CURVE('',#188,#192,#137,.T.);
#403=EDGE_CURVE('',#187,#188,#142,.T.);
#435=ADVANCED_BREP_SHAPE_REPRESENTATION('',(#426),#434);
#442=PRODUCT_DEFINITION('design','',#441,#438);
#443=PRODUCT_DEFINITION_SHAPE('','SHAPE FOR AX123_TIRE.',#442);
#444=SHAPE_DEFINITION_REPRESENTATION(#443,#435);
ENDSEC;
END-ISO-10303-21;
